Logotipo Gospelcifras

Em Teus Braços

Laura Souguellis

4.548 exibições
[INT]-> F7M  C  (2X)
 

      F7M                F7M
E|-----------------------------------------|
B|--5-3-1--------------5-3-1---------------|
G|-----------------------------------------|
D|-----------------------------------------|
A|-----------------------------------------|
E|-----------------------------------------|

   

     C                  C
E|-----------------------------------------|
B|--1------------------1-------------------|
G|-----0------------------0-2-4------------|
D|-------2----------------------2-3--------|
A|-----------------------------------------|
E|-----------------------------------------|


F7M                                                C
 Seguro estou nos braços, daquele que nunca me deixou
F7M                                             C
 Seu amor perfeito sempre esteve repousando em mim
            Am                        F             G
E se eu passar pelo vale, acharei conforto em Teu amor
                Em7                          F     G
Pois eu sei que és aquele que me guarda, me guardas

REFRÃO 2x: 
               F7M
Em teus braços é meu descanso
               C
Em teus braços é meu descanso

F7M                                                C
 Seguro estou nos braços, daquele que nunca me deixou
F7M                                             C
 Seu amor perfeito sempre esteve repousando em mim
            Am                        F             G
E se eu passar pelo vale, acharei conforto em Teu amor
                Em7                          F     G
Pois eu sei que és aquele que me guarda, me guardas

REFRÃO 4x: 
               F7M
Em teus braços é meu descanso
               C
Em teus braços é meu descanso

F7M  C/G (10x)

F7M                  C/G
 Recaio em Tua Graça, recaio de novo em Tuas mãos (6x)
            Am                        F             G
E se eu passar pelo vale, acharei conforto em Teu amor
                Em7                          F     G
Pois eu sei que és aquele que me guarda, me guardas

REFRÃO 4x: 
               F7M
Em teus braços é meu descanso
               C
Em teus braços é meu descanso

( F7M  C/G ) (4x)

   F7M
O toque mais puro, o amor mais seguro do mundo
   C/G
O toque mais puro, o amor mais seguro do mundo, é o Teu Jesus